Oysterhead Owner Of The World

D-A-D-G

intro:
G-------12-12-10-10----1012-|-------12-12---1012------10H12-|
D--------------------12-----|-------------12-----10H12------|
A-10-10---------------------|-10-10-------------------------|
D---------------------------|-------------------------------|

G-------12-12-10-10----1012-|----12-10-10------10------12-|
D--------------------12-----|-------------10H12---10H12---|
A-10-10---------------------|-10--------------------------|
D---------------------------|-----------------------------|

verse:
G-------12-12-10-10-------|-------12-12-10-10--------|
D-------------------12-12-|-------------------10-10--|
A-10-10-------------------|-10-10--------------------|
D-------------------------|--------------------------|

G----------------|--------------------|
D-1-1----------1-|-1-1-0-1/12---------|
A-----1-1----1---|-------------10-10--|
D----------1-----|--------------------|