Say It To Me S.A.N.T.O.S.

Key of: Am (with G-F#-E walkdown on guitar)

 

Verse: (Trey & Page)

My thoughts are frozen

Like everyone else

You will always be remembered

Even life itself

 

Pre-Chorus:

Say it to me S.A.N.T.O.S. (ALL)

And try to make it rhyme (just Trey & Page)

Say it to me S.A.N.T.O.S. (ALL)

In normal moving time

Say it to me S.A.N.T.O.S. (ALL)

Itís off to work we go

Say it to me S.A.N.T.O.S. (ALL)

Heigh-ho, heigh-ho, heigh-ho! (ALL)

 

Chorus 2x:

Am†††††††††††††††† C

This is what space smells like (Mike: dangling in thin air)

†††††††† G†††††††††††††† D

You will always remember where you were

 

Instrumental Intro 4x (with echo on guitar)

 

Repeat Verse

 

Repeat Pre-Chorus

 

Chorus 2x: Am-C-G-D

This is what space smells like (Mike: dangling in thin air)

You will always remember (always remember) where you were

 

BRIDGE:

†††††† Am†††††††††††† C

We are winter, We are liquid

†††††† G††††††††††† D

We are lost, We are light

†††††††† Am††††††††††† C

WE ARE divided, We are liquid

†††††† G†††††††††††† D

We are vapor, We are light

 

Chorus 12x: Am-C-G-D

This is what space smells like (Mike: dangling in thin air)

You will always remember (always remember) where you were

 

Jam on Am

 

END: Chorus 4x, last 2x a-capella

 

 

Riff leading into chorus:

 

E ---------5--------------------------------------------

B ---------5--------------------------------------------

G ---7bb9-------------------------------------------------

D ----------------------------------------------------

A ----------------------------------------------------

E ----------------------------------------------------

 

Riff on 3rd line of 2nd verse:

 

E ---55-------------------------------------------------

B ---55-------------------------------------------------

G -------7p5----55----------------------------------------

D -----------7------7--5--7-------------------------------

A ----------------------------------------------------

E ----------------------------------------------------

 

E ----------------------------------------------------

B ----------------------------------------------------

G ----------------------------------------------------

D ----------------------------------------------------

A ----------------------------------------------------

E ----------------------------------------------------