No Men In No Manís Land

Tabbed by Walkerdonedone

Key of G, main theme is over a D riff (below)

 

How far have we fallen, how far can we go?
How far will we fall, if thereís nothing below
You stand on a rock, suspended in air
Emblazoned with sunlight keenly aware, that weíve
Broken free, something has changed
A tear in the fabric, some tiles rearranged

We are the no men in no manís land
We are the no men in no manís land

C†††††††††††††††††††††††† G
Darkness the one thing we all understand

C††††††††††††††††††† G
We are the no men in no manís land

Main Riff
We are the no men in no manís land

And the truth will rise above, and fiction fall beneath
Although the lies may bite, the truth has all the teeth
You see us as a window, youíre happy that weíre here
Exposed to all the elements, while inside all is clear


Bridge: (with ooohís)

†† Em ††††††††††C†††††††††††††† Em††††† †††††C
But if you hold a mirror, and you turn it to one side

††† Em †††††††††††††††C††††††††††† †††††D
The depth you see within at first, will find a place to hide


We are the no men in no manís land
We are the no men in no manís land
We are the no men in no manís land
We are the no men in no manís land

Vamp on riff for 16, Cam stay on the ride until the verse, then back to hi-hat


The loss of all motion, the absence of sound
When thereís no sun to circle around
We are the no men (4x)

 

Jam in D mixo

 

We are the...no men in no manís land

 

Main Riff

e -----------------------------------------

B -----10----------------------------------

G -----10b11-------------------------------

D -------------9-10~--9-10--1010-9-10^12---

A -----------------------------------------

E ---10------------------------------------

 

e ----------------------------------------------------

B ----------------------------------------------------

G ----------------------------------------------------

D ----------------------------------------------------

A ----------------------------------------------------

E ----------------------------------------------------