Breath and Burning

Phish

Big Boat

 

[Intro]

strumming pattern is:

v^v^ v^ v^v^ v^v^

A††† DG††† D††† (x4)

 

[Verses]

(same as intro)

 

A†††††††††† D††††††† G†††† D

Breath and burning

†††††† A††††††† D††††† G†† D

We are made of sand

A†††††† D††††††††† G†† ††††D

Slowly turning

†††††† A†††††††††† D††††† G††† D

At the wave's command

††† A†††††††††††††† D†††††† G†††† D

And what does it matter

†††††††† A††††††††† D†††††††† G†††† D

That the nightmares all came true

††† A††††††††††††††† D††††††††† G†††††††† D

The black crowds are scattered across the sky

††††††††††† A†††††† D†††††††††††† G†††††† D

And there's nothing left we can do

††† D

But celebrate while the hurricane

†††††† A

Throws salt and water into the room

††††† D

The canary died, the healer lied

††† A

The yellow fields disappeared too soon

D

Mid-air voltage blooms and grows

A

Unstoppable, itís instant heat

†††††† D

And as sinners plea on bended knee

†††††††† E

Weíll be dancing here for days

 

A D G D (x4)

 

[Horns]

 

E|--5~--~------------------------|

B|---------7--5------------------|

G|---------------6--4------------|

D|---------------------7~--~--~--|

A|-------------------------------|††††

E|-------------------------------|(x2)

 

A††††††††† D††††††† G†††† D

Breath and burning

†††††† A††††††† D††††† G†† D

We are made of sand

A†††††† D††††††††† G†††††† D

Slowly turning

†††††† A†††††††† D††††† G††† D

At the wave's command

††† A††††††††††††† D†††††† G†††† D

And what does it matter

†††††††† A†††††††††† D††††††† G†††† D

That the endís in sight

††††† A††††† †††††D††††††† G†††† D

Weíre not going gently

††††††††††† A†††††††††† D†††††††††† G††††††††††† D

Weíre gonna rage with Page at the dying of the light

Hey!

 

A# D# G# D#(x4)

 

[Horns]

 

E|--6~--~------------------------|

B|---------8--6------------------|

G|---------------7--5------------|

D|---------------------8~--~--~--|

A|-------------------------------|††††

E|-------------------------------|(x2)

 

A D G D (x4)

 

[Horns]

 

E|--5~--~------------------------|

B|---------7--5------------------|

G|---------------6--4------------|

D|---------------------7~--~--~--|

A|-------------------------------|†††† x2

E|-------------------------------|

 

†††† D

The sudden unexpected fate

†† A

Of sunken ships was our future path

†††† D

Your string of beads did nothing to

A

Prepare for you what was sure to pass

D

Shadow wheels in shipping lanes

††† A

The angry winds blew straight from hell

††††††† D††††††††††††††††††††††††††††††††† E

And the tourtise pulls its head inside its shell

 

[Trey Fill]

 

E|------7----------|

B|-----------7--5--|

G|--5/7---7--------|

D|-----------------|

A|-----------------|

E|-----------------|

 

A††††††††† D††††††† G†††† D

Breath and burning

†††††† A††††††† D††††† G†† D

We are made of sand

A†††††† D††††††††† G†††††† D

Slowly turning

†††††† A ††††††††D††††† G††† D

At the wave's command

††† A††††††††††††† D†††††† G†††† D

And what does it matter

†††††††† A†††† D†††††† G†††† D

Itíll be over soon

††† A†††††††††††††† D†††††† G†††† D

Our headís on a platter

†††††††† A†††††††††††† D††††††††† G†††††† D

So letís spin in the light of the moon

†††††††† A††††††† D††††††††††† G†††††† D

We still got the light of the moon

††††† A†††††††††††† D††††††††††† G†††††† D

Weíll dance in the light of the moon

Hey!

 

[Outro]

 

A# D# G# D# A# D# G#†††††††† D#††† †††(x4)

†††††††††††††††† Breath and burning

 

[Horns]

 

E|--6~--~------------------------|

B|---------8--6------------------|

G|---------------7--5------------|

D|---------------------8~--~--~--|

A|-------------------------------|††††

E|-------------------------------|(x4)

 

 

[Outro Solo]

 

E|---------------------------------------------------------|--|

B|--15r13--15r13--11------11--15r13--11--11----------11~---|--|

G|--------------------12-----------------------10h12-------|--|

D|------------------------------------------12-------------|--|

A|---------------------------------------------------------|--|

E|---------------------------------------------------------|--|

 

E|--------13----------------10---------11--------------------------------------------|--|

B|--13b15~----15-r-13----------------------------------------------------------------|--|

G|---------------------8/10-----10/12------12\10---------13~---------12~---------10--|--|

D|-------------------------------------------------10h12-------10h12-------10h12-----|--|

A|-----------------------------------------------------------------------------------|--|

E|-----------------------------------------------------------------------------------|--|

 

E|------------------------------------------|-----------------------------------------|--|

B|-----------------------11--13--15r13--11--|-----11----------------------------------|--|

G|--10~------10------10---------------------|------------12p10---------13----13---12~-|--|

D|-------12------12-------------------------|--12----12---------10--12----12----------|--|

A|------------------------------------------|-----------------------------------------|--|

E|------------------------------------------|-----------------------------------------|--|

 

E|---------------------------------------------------------|--|

B|--13b15--11------13b15r13--11v------13--13b15r13p11--11--|--|

G|-------------12-----------------12-----------------------|--|

D|---------------------------------------------------------|--|

A|---------------------------------------------------------|--|

E|---------------------------------------------------------|--|

 

End on A#

 

 

 

************************************

 

| hHammer-on

| pPull-off

| rRelease

| bBend

| /Slide up

| \Slide down

| ~Vibrato

| vstrum

 

************************************